  0
SECTION
  2
HEADER
  9
$ACADVER
  1
AC1015
  9
$ACADMAINTVER
 70
     6
  9
$DWGCODEPAGE
  3
ANSI_1254
  9
$INSBASE
 10
0.0
 20
0.0
 30
0.0
  9
$EXTMIN
 10
0.0
 20
0.0
 30
0.0
  9
$EXTMAX
 10
279.4
 20
215.9
 30
0.0
  9
$LIMMIN
 10
0.0
 20
0.0
  9
$LIMMAX
 10
279.4
 20
215.9
  9
$ORTHOMODE
 70
     0
  9
$REGENMODE
 70
     1
  9
$FILLMODE
 70
     1
  9
$QTEXTMODE
 70
     0
  9
$MIRRTEXT
 70
     1
  9
$LTSCALE
 40
1.0
  9
$ATTMODE
 70
     1
  9
$TEXTSIZE
 40
3.5
  9
$TRACEWID
 40
1.0
  9
$TEXTSTYLE
  7
Standard
  9
$CLAYER
  8
0
  9
$CELTYPE
  6
ByLayer
  9
$CECOLOR
 62
   256
  9
$CELTSCALE
 40
1.0
  9
$DISPSILH
 70
     0
  9
$DIMSCALE
 40
1.0
  9
$DIMASZ
 40
3.5
  9
$DIMEXO
 40
1.0
  9
$DIMDLI
 40
3.75
  9
$DIMRND
 40
0.0
  9
$DIMDLE
 40
0.0
  9
$DIMEXE
 40
1.0
  9
$DIMTP
 40
0.0
  9
$DIMTM
 40
0.0
  9
$DIMTXT
 40
3.5
  9
$DIMCEN
 40
2.5
  9
$DIMTSZ
 40
0.0
  9
$DIMTOL
 70
     0
  9
$DIMLIM
 70
     0
  9
$DIMTIH
 70
     1
  9
$DIMTOH
 70
     1
  9
$DIMSE1
 70
     0
  9
$DIMSE2
 70
     0
  9
$DIMTAD
 70
     1
  9
$DIMZIN
 70
     0
  9
$DIMBLK
  1

  9
$DIMASO
 70
     1
  9
$DIMSHO
 70
     1
  9
$DIMPOST
  1

  9
$DIMAPOST
  1

  9
$DIMALT
 70
     0
  9
$DIMALTD
 70
     3
  9
$DIMALTF
 40
0.0393700787
  9
$DIMLFAC
 40
1.0
  9
$DIMTOFL
 70
     1
  9
$DIMTVP
 40
0.0
  9
$DIMTIX
 70
     0
  9
$DIMSOXD
 70
     0
  9
$DIMSAH
 70
     0
  9
$DIMBLK1
  1

  9
$DIMBLK2
  1

  9
$DIMSTYLE
  2
ISO-25
  9
$DIMCLRD
 70
     0
  9
$DIMCLRE
 70
     0
  9
$DIMCLRT
 70
     0
  9
$DIMTFAC
 40
1.0
  9
$DIMGAP
 40
1.524
  9
$DIMJUST
 70
     0
  9
$DIMSD1
 70
     0
  9
$DIMSD2
 70
     0
  9
$DIMTOLJ
 70
     0
  9
$DIMTZIN
 70
     0
  9
$DIMALTZ
 70
     0
  9
$DIMALTTZ
 70
     0
  9
$DIMUPT
 70
     0
  9
$DIMDEC
 70
     2
  9
$DIMTDEC
 70
     2
  9
$DIMALTU
 70
     2
  9
$DIMALTTD
 70
     3
  9
$DIMTXSTY
  7
Standard
  9
$DIMAUNIT
 70
     0
  9
$DIMADEC
 70
     2
  9
$DIMALTRND
 40
0.0
  9
$DIMAZIN
 70
     0
  9
$DIMDSEP
 70
    44
  9
$DIMATFIT
 70
     3
  9
$DIMFRAC
 70
     0
  9
$DIMLDRBLK
  1

  9
$DIMLUNIT
 70
     2
  9
$DIMLWD
 70
    -2
  9
$DIMLWE
 70
    -2
  9
$DIMTMOVE
 70
     0
  9
$LUNITS
 70
     2
  9
$LUPREC
 70
     2
  9
$SKETCHINC
 40
1.0
  9
$FILLETRAD
 40
10.0
  9
$AUNITS
 70
     0
  9
$AUPREC
 70
     2
  9
$MENU
  1
.
  9
$ELEVATION
 40
0.0
  9
$PELEVATION
 40
0.0
  9
$THICKNESS
 40
0.0
  9
$LIMCHECK
 70
     0
  9
$CHAMFERA
 40
0.0
  9
$CHAMFERB
 40
0.0
  9
$CHAMFERC
 40
0.0
  9
$CHAMFERD
 40
0.0
  9
$SKPOLY
 70
     0
  9
$TDCREATE
 40
2458985.682851273
  9
$TDUCREATE
 40
2458985.557851273
  9
$TDUPDATE
 40
2458985.682851597
  9
$TDUUPDATE
 40
2458985.557851597
  9
$TDINDWG
 40
0.0000000116
  9
$TDUSRTIMER
 40
0.0000000116
  9
$USRTIMER
 70
     1
  9
$ANGBASE
 50
0.0
  9
$ANGDIR
 70
     0
  9
$PDMODE
 70
     0
  9
$PDSIZE
 40
-1.0
  9
$PLINEWID
 40
0.0
  9
$SPLFRAME
 70
     0
  9
$SPLINETYPE
 70
     6
  9
$SPLINESEGS
 70
     8
  9
$HANDSEED
  5
CB
  9
$SURFTAB1
 70
     6
  9
$SURFTAB2
 70
     6
  9
$SURFTYPE
 70
     6
  9
$SURFU
 70
     6
  9
$SURFV
 70
     6
  9
$UCSBASE
  2

  9
$UCSNAME
  2

  9
$UCSORG
 10
0.0
 20
0.0
 30
0.0
  9
$UCSXDIR
 10
1.0
 20
0.0
 30
0.0
  9
$UCSYDIR
 10
0.0
 20
1.0
 30
0.0
  9
$UCSORTHOREF
  2

  9
$UCSORTHOVIEW
 70
     0
  9
$UCSORGTOP
 10
0.0
 20
0.0
 30
0.0
  9
$UCSORGBOTTOM
 10
0.0
 20
0.0
 30
0.0
  9
$UCSORGLEFT
 10
0.0
 20
0.0
 30
0.0
  9
$UCSORGRIGHT
 10
0.0
 20
0.0
 30
0.0
  9
$UCSORGFRONT
 10
0.0
 20
0.0
 30
0.0
  9
$UCSORGBACK
 10
0.0
 20
0.0
 30
0.0
  9
$PUCSBASE
  2

  9
$PUCSNAME
  2

  9
$PUCSORG
 10
0.0
 20
0.0
 30
0.0
  9
$PUCSXDIR
 10
1.0
 20
0.0
 30
0.0
  9
$PUCSYDIR
 10
0.0
 20
1.0
 30
0.0
  9
$PUCSORTHOREF
  2

  9
$PUCSORTHOVIEW
 70
     0
  9
$PUCSORGTOP
 10
0.0
 20
0.0
 30
0.0
  9
$PUCSORGBOTTOM
 10
0.0
 20
0.0
 30
0.0
  9
$PUCSORGLEFT
 10
0.0
 20
0.0
 30
0.0
  9
$PUCSORGRIGHT
 10
0.0
 20
0.0
 30
0.0
  9
$PUCSORGFRONT
 10
0.0
 20
0.0
 30
0.0
  9
$PUCSORGBACK
 10
0.0
 20
0.0
 30
0.0
  9
$USERI1
 70
     0
  9
$USERI2
 70
     0
  9
$USERI3
 70
     0
  9
$USERI4
 70
     0
  9
$USERI5
 70
     0
  9
$USERR1
 40
0.0
  9
$USERR2
 40
0.0
  9
$USERR3
 40
0.0
  9
$USERR4
 40
0.0
  9
$USERR5
 40
0.0
  9
$WORLDVIEW
 70
     1
  9
$SHADEDGE
 70
     3
  9
$SHADEDIF
 70
    70
  9
$TILEMODE
 70
     1
  9
$MAXACTVP
 70
    64
  9
$PINSBASE
 10
0.0
 20
0.0
 30
0.0
  9
$PLIMCHECK
 70
     0
  9
$PEXTMIN
 10
1.0000000000E+20
 20
1.0000000000E+20
 30
1.0000000000E+20
  9
$PEXTMAX
 10
-1.0000000000E+20
 20
-1.0000000000E+20
 30
-1.0000000000E+20
  9
$PLIMMIN
 10
0.0
 20
0.0
  9
$PLIMMAX
 10
420.0
 20
297.0
  9
$UNITMODE
 70
     0
  9
$VISRETAIN
 70
     1
  9
$PLINEGEN
 70
     0
  9
$PSLTSCALE
 70
     1
  9
$TREEDEPTH
 70
  3020
  9
$CMLSTYLE
  2
Standard
  9
$CMLJUST
 70
     0
  9
$CMLSCALE
 40
20.0
  9
$PROXYGRAPHICS
 70
     1
  9
$MEASUREMENT
 70
     1
  9
$CELWEIGHT
370
    -1
  9
$ENDCAPS
280
     0
  9
$JOINSTYLE
280
     0
  9
$LWDISPLAY
290
     1
  9
$INSUNITS
 70
     4
  9
$HYPERLINKBASE
  1

  9
$STYLESHEET
  1

  9
$XEDIT
290
     1
  9
$CEPSNTYPE
380
     0
  9
$PSTYLEMODE
290
     1
  9
$FINGERPRINTGUID
  2
{d17d3145-f883-44b8-80cc-86a8d74e4adb}
  9
$VERSIONGUID
  2
{FAEB1C32-E019-11D5-929B-00C0DF256EC4}
  9
$EXTNAMES
290
     1
  9
$PSVPSCALE
 40
0.0
  9
$OLESTARTUP
290
     0
  0
ENDSEC
  0
SECTION
  2
CLASSES
  0
CLASS
  1
ACDBDICTIONARYWDFLT
  2
AcDbDictionaryWithDefault
  3
ObjectDBX Classes
 90
        0
280
     0
281
     0
  0
CLASS
  1
VISUALSTYLE
  2
AcDbVisualStyle
  3
ObjectDBX Classes
 90
     4095
280
     0
281
     0
  0
CLASS
  1
MATERIAL
  2
AcDbMaterial
  3
ObjectDBX Classes
 90
     1153
280
     0
281
     0
  0
CLASS
  1
SCALE
  2
AcDbScale
  3
ObjectDBX Classes
 90
     1153
280
     0
281
     0
  0
CLASS
  1
TABLESTYLE
  2
AcDbTableStyle
  3
ObjectDBX Classes
 90
     4095
280
     0
281
     0
  0
CLASS
  1
MLEADERSTYLE
  2
AcDbMLeaderStyle
  3
ACDB_MLEADERSTYLE_CLASS
 90
     4095
280
     0
281
     0
  0
CLASS
  1
SUN
  2
AcDbSun
  3
SCENEOE
 90
     1153
280
     0
281
     0
  0
CLASS
  1
ACDBPLACEHOLDER
  2
AcDbPlaceHolder
  3
ObjectDBX Classes
 90
        0
280
     0
281
     0
  0
CLASS
  1
LAYOUT
  2
AcDbLayout
  3
ObjectDBX Classes
 90
        0
280
     0
281
     0
  0
ENDSEC
  0
SECTION
  2
TABLES
  0
TABLE
  2
VPORT
  5
8
330
0
100
AcDbSymbolTable
 70
     1
  0
VPORT
  5
29
330
8
100
AcDbSymbolTableRecord
100
AcDbViewportTableRecord
  2
*Active
 70
     0
 10
0.0
 20
0.0
 11
1.0
 21
1.0
 12
139.7
 22
107.95
 13
0.0
 23
0.0
 14
10.0
 24
10.0
 15
10.0
 25
10.0
 16
0.0
 26
0.0
 36
1.0
 17
0.0
 27
0.0
 37
0.0
 40
215.9
 41
1.2941176471
 42
50.0
 43
0.0
 44
0.0
 50
0.0
 51
0.0
 71
     0
 72
  2000
 73
     1
 74
     3
 75
     0
 76
     0
 77
     0
 78
     0
281
     0
 65
     1
110
0.0
120
0.0
130
0.0
111
1.0
121
0.0
131
0.0
112
0.0
122
1.0
132
0.0
 79
     0
146
0.0
  0
ENDTAB
  0
TABLE
  2
LTYPE
  5
5
330
0
100
AcDbSymbolTable
 70
     6
  0
LTYPE
  5
14
330
5
100
AcDbSymbolTableRecord
100
AcDbLinetypeTableRecord
  2
ByBlock
 70
     0
  3

 72
    65
 73
     0
 40
0.0
  0
LTYPE
  5
15
330
5
100
AcDbSymbolTableRecord
100
AcDbLinetypeTableRecord
  2
ByLayer
 70
     0
  3

 72
    65
 73
     0
 40
0.0
  0
LTYPE
  5
16
330
5
100
AcDbSymbolTableRecord
100
AcDbLinetypeTableRecord
  2
Continuous
 70
     0
  3
Solid line
 72
    65
 73
     0
 40
0.0
  0
LTYPE
  5
6E
330
5
100
AcDbSymbolTableRecord
100
AcDbLinetypeTableRecord
  2
HIDDEN
 70
     0
  3
Hidden __ __ __ __ __ __ __ __ __ __ __ __ __ __
 72
    65
 73
     2
 40
1.905
 49
1.27
 74
     0
 49
-0.635
 74
     0
  0
LTYPE
  5
6F
330
5
100
AcDbSymbolTableRecord
100
AcDbLinetypeTableRecord
  2
PHANTOM
 70
     0
  3
Phantom ______  __  __  ______  __  __  ______
 72
    65
 73
     6
 40
12.7
 49
6.35
 74
     0
 49
-1.27
 74
     0
 49
1.27
 74
     0
 49
-1.27
 74
     0
 49
1.27
 74
     0
 49
-1.27
 74
     0
  0
LTYPE
  5
70
330
5
100
AcDbSymbolTableRecord
100
AcDbLinetypeTableRecord
  2
CENTER
 70
     0
  3
Center ____ _ ____ _ ____ _ ____ _ ____ _ ____
 72
    65
 73
     4
 40
10.16
 49
6.35
 74
     0
 49
-1.27
 74
     0
 49
1.27
 74
     0
 49
-1.27
 74
     0
  0
LTYPE
  5
71
330
5
100
AcDbSymbolTableRecord
100
AcDbLinetypeTableRecord
  2
CENTERX2
 70
     0
  3
Center (2x) ________  __  ________  __  _____
 72
    65
 73
     4
 40
20.32
 49
12.7
 74
     0
 49
-2.54
 74
     0
 49
2.54
 74
     0
 49
-2.54
 74
     0
  0
LTYPE
  5
72
330
5
100
AcDbSymbolTableRecord
100
AcDbLinetypeTableRecord
  2
DOT2
 70
     0
  3
Dot (.5x) ........................................
 72
    65
 73
     2
 40
0.635
 49
0.0
 74
     0
 49
-0.635
 74
     0
  0
ENDTAB
  0
TABLE
  2
LAYER
  5
2
330
0
100
AcDbSymbolTable
 70
    17
  0
LAYER
  5
10
330
2
100
AcDbSymbolTableRecord
100
AcDbLayerTableRecord
  2
0
 70
     0
 62
     7
  6
Continuous
370
    -3
390
F
  0
LAYER
  5
73
330
2
100
AcDbSymbolTableRecord
100
AcDbLayerTableRecord
  2
FORMAT
 70
     0
 62
     7
  6
Continuous
370
    -3
390
F
  0
LAYER
  5
74
330
2
100
AcDbSymbolTableRecord
100
AcDbLayerTableRecord
  2
YARDIMCI_GEOMETRI
 70
     0
 62
    -6
  6
Continuous
290
     0
370
    -3
390
F
  0
LAYER
  5
75
330
2
100
AcDbSymbolTableRecord
100
AcDbLayerTableRecord
  2
SAYFA_CERCEVESI
 70
     0
 62
     7
  6
Continuous
370
    25
390
F
  0
LAYER
  5
76
330
2
100
AcDbSymbolTableRecord
100
AcDbLayerTableRecord
  2
ANTET
 70
     0
 62
     7
  6
Continuous
370
    -3
390
F
  0
LAYER
  5
77
330
2
100
AcDbSymbolTableRecord
100
AcDbLayerTableRecord
  2
OLCU
 70
     0
 62
   150
  6
Continuous
370
    -3
390
F
  0
LAYER
  5
78
330
2
100
AcDbSymbolTableRecord
100
AcDbLayerTableRecord
  2
METIN
 70
     0
 62
    96
  6
Continuous
370
    -3
390
F
  0
LAYER
  5
79
330
2
100
AcDbSymbolTableRecord
100
AcDbLayerTableRecord
  2
BALON
 70
     0
 62
     5
  6
Continuous
370
    -3
390
F
  0
LAYER
  5
7A
330
2
100
AcDbSymbolTableRecord
100
AcDbLayerTableRecord
  2
VURGU
 70
     0
 62
     7
  6
Continuous
370
    -3
390
F
  0
LAYER
  5
7B
330
2
100
AcDbSymbolTableRecord
100
AcDbLayerTableRecord
  2
SILIK
 70
     0
 62
     7
  6
Continuous
370
    -3
390
F
  0
LAYER
  5
7C
330
2
100
AcDbSymbolTableRecord
100
AcDbLayerTableRecord
  2
MODEL
 70
     0
 62
     7
  6
Continuous
370
    -3
390
F
  0
LAYER
  5
7D
330
2
100
AcDbSymbolTableRecord
100
AcDbLayerTableRecord
  2
DETAYLANDıRMA
 70
     0
 62
   190
  6
Continuous
370
    -3
390
F
  0
LAYER
  5
7E
330
2
100
AcDbSymbolTableRecord
100
AcDbLayerTableRecord
  2
TOLERANS
 70
     0
 62
   230
  6
Continuous
370
    -3
390
F
  0
LAYER
  5
7F
330
2
100
AcDbSymbolTableRecord
100
AcDbLayerTableRecord
  2
MERKEZ_CIZGILERI
 70
     0
 62
    30
  6
Continuous
370
    -3
390
F
  0
LAYER
  5
80
330
2
100
AcDbSymbolTableRecord
100
AcDbLayerTableRecord
  2
KESIT-DETAY_CIZGILERI
 70
     0
 62
     7
  6
Continuous
370
    -3
390
F
  0
LAYER
  5
81
330
2
100
AcDbSymbolTableRecord
100
AcDbLayerTableRecord
  2
\U+041E\U+0421\U+0415\U+0412\U+042B\U+0415
 70
     0
 62
     7
  6
Continuous
370
    -3
390
F
  0
LAYER
  5
82
330
2
100
AcDbSymbolTableRecord
100
AcDbLayerTableRecord
  2
\U+0412\U+041E\U+0414\U+042F\U+041D\U+042B\U+0415_\U+0417\U+041D\U+0410\U+041A\U+0418
 70
     0
 62
    11
  6
Continuous
370
    -3
390
F
  0
ENDTAB
  0
TABLE
  2
STYLE
  5
3
330
0
100
AcDbSymbolTable
 70
     1
  0
STYLE
  5
11
330
3
100
AcDbSymbolTableRecord
100
AcDbTextStyleTableRecord
  2
Standard
 70
     0
 40
0.0
 41
1.0
 50
0.0
 71
     0
 42
3.5
  3
txt
  4

  0
ENDTAB
  0
TABLE
  2
VIEW
  5
6
330
0
100
AcDbSymbolTable
 70
     0
  0
ENDTAB
  0
TABLE
  2
UCS
  5
7
330
0
100
AcDbSymbolTable
 70
     0
  0
ENDTAB
  0
TABLE
  2
APPID
  5
9
330
0
100
AcDbSymbolTable
 70
     1
  0
APPID
  5
12
330
9
100
AcDbSymbolTableRecord
100
AcDbRegAppTableRecord
  2
ACAD
 70
     0
  0
ENDTAB
  0
TABLE
  2
DIMSTYLE
  5
A
330
0
100
AcDbSymbolTable
 70
     1
100
AcDbDimStyleTable
  0
DIMSTYLE
105
27
330
A
100
AcDbSymbolTableRecord
100
AcDbDimStyleTableRecord
  2
ISO-25
 70
     0
 41
2.5
 42
0.625
 43
3.75
 44
1.25
 73
     0
 74
     0
 77
     1
 78
     8
140
2.5
141
2.5
143
0.0393700787
147
0.625
171
     3
172
     1
178
     0
271
     2
272
     2
274
     3
278
    44
283
     0
284
     8
340
11
  0
ENDTAB
  0
TABLE
  2
BLOCK_RECORD
  5
1
330
0
100
AcDbSymbolTable
 70
     3
  0
BLOCK_RECORD
  5
1F
330
1
100
AcDbSymbolTableRecord
100
AcDbBlockTableRecord
  2
*Model_Space
340
22
  0
BLOCK_RECORD
  5
1B
330
1
100
AcDbSymbolTableRecord
100
AcDbBlockTableRecord
  2
*Paper_Space
340
1E
  0
BLOCK_RECORD
  5
23
330
1
100
AcDbSymbolTableRecord
100
AcDbBlockTableRecord
  2
*Paper_Space0
340
26
  0
BLOCK_RECORD
  5
88
330
1
100
AcDbSymbolTableRecord
100
AcDbBlockTableRecord
  2
SW_CENTERMARKSYMBOL_0
340
0
102
{BLKREFS
331
93
102
}
  0
BLOCK_RECORD
  5
B2
330
1
100
AcDbSymbolTableRecord
100
AcDbBlockTableRecord
  2
SW_CENTERMARKSYMBOL_1
340
0
102
{BLKREFS
331
BD
102
}
  0
ENDTAB
  0
ENDSEC
  0
SECTION
  2
BLOCKS
  0
BLOCK
  5
20
330
1F
100
AcDbEntity
  8
0
100
AcDbBlockBegin
  2
*Model_Space
 70
     0
 10
0.0
 20
0.0
 30
0.0
  3
*Model_Space
  1

  0
ENDBLK
  5
21
330
1F
100
AcDbEntity
  8
0
100
AcDbBlockEnd
  0
BLOCK
  5
1C
330
1B
100
AcDbEntity
 67
     1
  8
0
100
AcDbBlockBegin
  2
*Paper_Space
 70
     0
 10
0.0
 20
0.0
 30
0.0
  3
*Paper_Space
  1

  0
ENDBLK
  5
1D
330
1B
100
AcDbEntity
 67
     1
  8
0
100
AcDbBlockEnd
  0
BLOCK
  5
24
330
23
100
AcDbEntity
  8
0
100
AcDbBlockBegin
  2
*Paper_Space0
 70
     0
 10
0.0
 20
0.0
 30
0.0
  3
*Paper_Space0
  1

  0
ENDBLK
  5
25
330
23
100
AcDbEntity
  8
0
100
AcDbBlockEnd
  0
BLOCK
  5
89
330
88
100
AcDbEntity
  8
0
100
AcDbBlockBegin
  2
SW_CENTERMARKSYMBOL_0
 70
     0
 10
0.0
 20
0.0
 30
0.0
  3
SW_CENTERMARKSYMBOL_0
  1

  0
LINE
  5
8B
330
88
100
AcDbEntity
  8
FORMAT
 62
     0
100
AcDbLine
 10
0.0
 20
0.0
 30
0.0
 11
0.0
 21
2.5
 31
0.0
  0
LINE
  5
8C
330
88
100
AcDbEntity
  8
FORMAT
 62
     0
100
AcDbLine
 10
0.0
 20
0.0
 30
0.0
 11
-2.5
 21
0.0
 31
0.0
  0
LINE
  5
8D
330
88
100
AcDbEntity
  8
FORMAT
 62
     0
100
AcDbLine
 10
0.0
 20
0.0
 30
0.0
 11
0.0
 21
-2.5
 31
0.0
  0
LINE
  5
8E
330
88
100
AcDbEntity
  8
FORMAT
 62
     0
100
AcDbLine
 10
0.0
 20
0.0
 30
0.0
 11
2.5
 21
0.0
 31
0.0
  0
LINE
  5
8F
330
88
100
AcDbEntity
  8
FORMAT
 62
     0
100
AcDbLine
 10
0.0
 20
5.0
 30
0.0
 11
0.0
 21
92.5
 31
0.0
  0
LINE
  5
90
330
88
100
AcDbEntity
  8
FORMAT
 62
     0
100
AcDbLine
 10
-5.0
 20
0.0
 30
0.0
 11
-92.5
 21
0.0
 31
0.0
  0
LINE
  5
91
330
88
100
AcDbEntity
  8
FORMAT
 62
     0
100
AcDbLine
 10
0.0
 20
-5.0
 30
0.0
 11
0.0
 21
-92.5
 31
0.0
  0
LINE
  5
92
330
88
100
AcDbEntity
  8
FORMAT
 62
     0
100
AcDbLine
 10
5.0
 20
0.0
 30
0.0
 11
92.5
 21
0.0
 31
0.0
  0
ENDBLK
  5
8A
330
88
100
AcDbEntity
  8
0
100
AcDbBlockEnd
  0
BLOCK
  5
B3
330
B2
100
AcDbEntity
  8
0
100
AcDbBlockBegin
  2
SW_CENTERMARKSYMBOL_1
 70
     0
 10
0.0
 20
0.0
 30
0.0
  3
SW_CENTERMARKSYMBOL_1
  1

  0
LINE
  5
B5
330
B2
100
AcDbEntity
  8
FORMAT
 62
     0
100
AcDbLine
 10
0.0
 20
0.0
 30
0.0
 11
0.0
 21
2.5
 31
0.0
  0
LINE
  5
B6
330
B2
100
AcDbEntity
  8
FORMAT
 62
     0
100
AcDbLine
 10
0.0
 20
0.0
 30
0.0
 11
-2.5
 21
0.0
 31
0.0
  0
LINE
  5
B7
330
B2
100
AcDbEntity
  8
FORMAT
 62
     0
100
AcDbLine
 10
0.0
 20
0.0
 30
0.0
 11
0.0
 21
-2.5
 31
0.0
  0
LINE
  5
B8
330
B2
100
AcDbEntity
  8
FORMAT
 62
     0
100
AcDbLine
 10
0.0
 20
0.0
 30
0.0
 11
2.5
 21
0.0
 31
0.0
  0
LINE
  5
B9
330
B2
100
AcDbEntity
  8
FORMAT
 62
     0
100
AcDbLine
 10
0.0
 20
5.0
 30
0.0
 11
0.0
 21
57.5
 31
0.0
  0
LINE
  5
BA
330
B2
100
AcDbEntity
  8
FORMAT
 62
     0
100
AcDbLine
 10
-5.0
 20
0.0
 30
0.0
 11
-57.5
 21
0.0
 31
0.0
  0
LINE
  5
BB
330
B2
100
AcDbEntity
  8
FORMAT
 62
     0
100
AcDbLine
 10
0.0
 20
-5.0
 30
0.0
 11
0.0
 21
-57.5
 31
0.0
  0
LINE
  5
BC
330
B2
100
AcDbEntity
  8
FORMAT
 62
     0
100
AcDbLine
 10
5.0
 20
0.0
 30
0.0
 11
57.5
 21
0.0
 31
0.0
  0
ENDBLK
  5
B4
330
B2
100
AcDbEntity
  8
0
100
AcDbBlockEnd
  0
ENDSEC
  0
SECTION
  2
ENTITIES
  0
LINE
  5
83
330
1F
100
AcDbEntity
  8
0
  6
Continuous
 62
     7
370
    25
100
AcDbLine
 10
146.6880929092
 20
49.1022428818
 30
0.0
 11
285.4124588037
 21
49.1022428818
 31
0.0
  0
LINE
  5
84
330
1F
100
AcDbEntity
  8
0
  6
Continuous
 62
     7
370
    25
100
AcDbLine
 10
285.4124588037
 20
159.1022428818
 30
0.0
 11
146.6723069609
 21
159.1022428818
 31
0.0
  0
CIRCLE
  5
85
330
1F
100
AcDbEntity
  8
0
  6
Continuous
 62
     7
370
    25
100
AcDbCircle
 10
75.4124588037
 20
104.1022428818
 30
0.0
 40
73.60000000000001
  0
CIRCLE
  5
86
330
1F
100
AcDbEntity
  8
0
  6
Continuous
 62
     7
370
    25
100
AcDbCircle
 10
75.4124588037
 20
104.1022428818
 30
0.0
 40
89.99999999999999
  0
LINE
  5
87
330
1F
100
AcDbEntity
  8
0
  6
Continuous
 62
     7
370
    25
100
AcDbLine
 10
285.4124588037
 20
159.1022428818
 30
0.0
 11
285.4124588037
 21
49.1022428818
 31
0.0
  0
INSERT
  5
93
330
1F
100
AcDbEntity
  8
FORMAT
100
AcDbBlockReference
  2
SW_CENTERMARKSYMBOL_0
 10
75.4124588037
 20
104.1022428818
 30
0.0
  0
LINE
  5
94
330
1F
100
AcDbEntity
  8
0
  6
Continuous
 62
     7
370
    25
100
AcDbLine
 10
-14.5875411963
 20
-82.8528368524
 30
0.0
 11
-14.5875411963
 21
-540.8528368524
 31
0.0
  0
LINE
  5
95
330
1F
100
AcDbEntity
  8
0
  6
Continuous
 62
     7
370
    25
100
AcDbLine
 10
165.4124588037
 20
-256.8905761976
 30
0.0
 11
165.4124588037
 21
-82.8528368524
 31
0.0
  0
LINE
  5
96
330
1F
100
AcDbEntity
  8
0
  6
Continuous
 62
     7
370
    25
100
AcDbLine
 10
165.4124588037
 20
-540.8528368524
 30
0.0
 11
165.4124588037
 21
-366.8528368524
 31
0.0
  0
LINE
  5
97
330
1F
100
AcDbEntity
  8
0
  6
Continuous
 62
     7
370
    25
100
AcDbLine
 10
165.4124588037
 20
-366.8528368524
 30
0.0
 11
285.4124588037
 21
-366.8528368524
 31
0.0
  0
LINE
  5
98
330
1F
100
AcDbEntity
  8
0
  6
Continuous
 62
     7
370
    25
100
AcDbLine
 10
285.4124588037
 20
-256.8528368524
 30
0.0
 11
165.3893597793
 21
-256.8528368524
 31
0.0
  0
SPLINE
  5
99
330
1F
100
AcDbEntity
  8
0
  6
Continuous
 62
     7
370
    25
100
AcDbSpline
210
0.0
220
0.0
230
1.0
 70
     8
 71
     3
 72
    39
 73
    35
 74
     0
 42
0.000000001
 43
0.00000001
 40
0.0
 40
0.0
 40
0.0
 40
0.0
 40
0.0108630420177597
 40
0.0337770525821344
 40
0.0574023740517897
 40
0.0810289639487238
 40
0.1255701334949657
 40
0.1711831124329515
 40
0.2203731843661831
 40
0.2706731608281819
 40
0.2985753159524354
 40
0.3264761774803007
 40
0.3552045069805181
 40
0.3839282643723793
 40
0.4277329081418987
 40
0.4502521774756211
 40
0.4727693150480762
 40
0.494716206922924
 40
0.5166628517783471
 40
0.5393385133656075
 40
0.5620160372924247
 40
0.6033918806081408
 40
0.6456871712229408
 40
0.6933570679973995
 40
0.7420241960096653
 40
0.7700419525536953
 40
0.7980583213137766
 40
0.8269151402494704
 40
0.8557686775216861
 40
0.883136451289554
 40
0.9105010287719296
 40
0.938951528271156
 40
0.9673992501104614
 40
1.0
 40
1.0
 40
1.0
 40
1.0
 10
165.389359731277
 20
-256.8905761975881
 30
0.0
 10
165.3940973418245
 20
-256.8827910230077
 30
0.0
 10
165.4088282542446
 20
-256.8585841525256
 30
0.0
 10
165.2351799001631
 20
-257.14315363715
 30
0.0
 10
164.873255022845
 20
-257.7383297516669
 30
0.0
 10
164.1530345702884
 20
-258.9344613232161
 30
0.0
 10
162.8701018978805
 20
-261.0997478882532
 30
0.0
 10
160.7856435397817
 20
-264.7612599052055
 30
0.0
 10
158.2193676483534
 20
-269.5550164715032
 30
0.0
 10
155.777943721947
 20
-274.5649992689475
 30
0.0
 10
153.7517869239049
 20
-279.203118514493
 30
0.0
 10
152.1845927337962
 20
-283.1517233085847
 30
0.0
 10
150.6982810634463
 20
-287.3851953411263
 30
0.0
 10
149.1147152588675
 20
-292.6801644089875
 30
0.0
 10
147.919476154393
 20
-297.9550104326075
 30
0.0
 10
147.1571017775481
 20
-303.064459589401
 30
0.0
 10
146.7810835636186
 20
-306.9870957307579
 30
0.0
 10
146.6229755630762
 20
-310.9153284490054
 30
0.0
 10
146.6778508035084
 20
-314.8605288762546
 30
0.0
 10
146.9561231364376
 20
-318.8244213930695
 30
0.0
 10
147.5841670790912
 20
-323.8584614228705
 30
0.0
 10
148.7880865393987
 20
-329.846485276181
 30
0.0
 10
150.7977178910388
 20
-336.7937752273756
 30
0.0
 10
153.2993583150239
 20
-343.5342089796761
 30
0.0
 10
155.6953101898507
 20
-348.9473204799672
 30
0.0
 10
157.6827679884477
 20
-353.033948973715
 30
0.0
 10
159.2387144780051
 20
-356.0548622329
 30
0.0
 10
160.7108919666592
 20
-358.7825421959617
 30
0.0
 10
162.0350900242451
 20
-361.1427869635526
 30
0.0
 10
163.1650728696895
 20
-363.0995029347976
 30
0.0
 10
164.0986223583796
 20
-364.6791578551579
 30
0.0
 10
164.8065900615608
 20
-365.8581063174735
 30
0.0
 10
165.3102197031347
 20
-366.6857091122457
 30
0.0
 10
165.3768677833934
 20
-366.7946570879597
 30
0.0
 10
165.4124588036696
 20
-366.8528368524426
 30
0.0
  0
LINE
  5
9A
330
1F
100
AcDbEntity
  8
0
  6
Continuous
 62
     7
370
    25
100
AcDbLine
 10
165.4124588037
 20
-540.8528368524
 30
0.0
 11
-14.5875411963
 21
-540.8528368524
 31
0.0
  0
LINE
  5
9B
330
1F
100
AcDbEntity
  8
0
  6
Continuous
 62
     7
370
    25
100
AcDbLine
 10
165.4124588037
 20
-82.8528368524
 30
0.0
 11
-14.5875411963
 21
-82.8528368524
 31
0.0
  0
LINE
  5
9C
330
1F
100
AcDbEntity
  8
0
  6
Continuous
 62
     7
370
    25
100
AcDbLine
 10
285.4124588037
 20
-256.8528368524
 30
0.0
 11
285.4124588037
 21
-366.8528368524
 31
0.0
  0
LINE
  5
9D
330
1F
100
AcDbEntity
  8
0
  6
Continuous
 62
     7
370
    25
100
AcDbLine
 10
165.4124588037
 20
557.4623764357
 30
0.0
 11
165.4124588037
 21
731.4623764357
 31
0.0
  0
LINE
  5
9E
330
1F
100
AcDbEntity
  8
0
  6
Continuous
 62
     7
370
    25
100
AcDbLine
 10
165.4124588037
 20
273.4623764357
 30
0.0
 11
165.4124588037
 21
447.4996311104
 31
0.0
  0
LINE
  5
9F
330
1F
100
AcDbEntity
  8
0
  6
Continuous
 62
     7
370
    25
100
AcDbLine
 10
-14.5875411963
 20
731.4623764357
 30
0.0
 11
-14.5875411963
 21
273.4623764357
 31
0.0
  0
LINE
  5
A0
330
1F
100
AcDbEntity
  8
0
  6
Continuous
 62
     7
370
    25
100
AcDbLine
 10
165.389697011
 20
447.4623764357
 30
0.0
 11
285.4124588037
 21
447.4623764357
 31
0.0
  0
LINE
  5
A1
330
1F
100
AcDbEntity
  8
0
  6
Continuous
 62
     7
370
    25
100
AcDbLine
 10
285.4124588037
 20
557.4623764357
 30
0.0
 11
165.4124588037
 21
557.4623764357
 31
0.0
  0
SPLINE
  5
A2
330
1F
100
AcDbEntity
  8
0
  6
Continuous
 62
     7
370
    25
100
AcDbSpline
210
0.0
220
0.0
230
1.0
 70
     8
 71
     3
 72
    36
 73
    32
 74
     0
 42
0.000000001
 43
0.00000001
 40
0.0
 40
0.0
 40
0.0
 40
0.0
 40
0.0232684813415613
 40
0.0467182829912958
 40
0.0707285514546161
 40
0.0949253966349304
 40
0.1415687515254788
 40
0.1893892868920866
 40
0.2397584015550291
 40
0.2912798108216947
 40
0.3194829049295528
 40
0.3478868644259202
 40
0.3769765733223577
 40
0.4063369485389252
 40
0.4488188765956456
 40
0.49248126561321
 40
0.5349925748541068
 40
0.5787949128652407
 40
0.6207955041214345
 40
0.6636819640006605
 40
0.7132679731778397
 40
0.7639399007603799
 40
0.7922440480994684
 40
0.8207534495585838
 40
0.8499547942721526
 40
0.8794199472868635
 40
0.9059108543710844
 40
0.9326343660308268
 40
0.9601444616061263
 40
0.9879477075346245
 40
1.0
 40
1.0
 40
1.0
 40
1.0
 10
165.4124588036696
 20
557.4623764356843
 30
0.0
 10
165.3941404812487
 20
557.4324277976899
 30
0.0
 10
165.3573610903541
 20
557.3722971460805
 30
0.0
 10
165.0589838257404
 20
556.882796738207
 30
0.0
 10
164.581199992171
 20
556.0931171747377
 30
0.0
 10
163.7054693800086
 20
554.6290942072109
 30
0.0
 10
162.2084192628587
 20
552.0743138287087
 30
0.0
 10
159.8783410451647
 20
547.9015208645876
 30
0.0
 10
157.1215157673717
 20
542.5882829505135
 30
0.0
 10
154.6050887888419
 20
537.1688509281017
 30
0.0
 10
152.5796362215081
 20
532.200720304881
 30
0.0
 10
151.0581478955089
 20
528.0125649471785
 30
0.0
 10
149.6559420714993
 20
523.5264079758314
 30
0.0
 10
148.2600807794923
 20
518.0546215799243
 30
0.0
 10
147.089231764968
 20
511.4720289538101
 30
0.0
 10
146.5264934987258
 20
503.8718480650293
 30
0.0
 10
146.7953684063168
 20
496.1516309150319
 30
0.0
 10
147.8473949121592
 20
488.7198042915365
 30
0.0
 10
149.536123785834
 20
481.6436473450395
 30
0.0
 10
151.7628574428595
 20
474.7502725834651
 30
0.0
 10
154.4441964309584
 20
468.0705511642023
 30
0.0
 10
156.9278058132335
 20
462.7779472461215
 30
0.0
 10
158.9160168914163
 20
458.8740911014156
 30
0.0
 10
160.4175248297062
 20
456.0672671714441
 30
0.0
 10
161.8058885053584
 20
453.5742899475917
 30
0.0
 10
162.990541446123
 20
451.5148798137341
 30
0.0
 10
163.9461540630566
 20
449.8921493542032
 30
0.0
 10
164.6768812661165
 20
448.6724788489083
 30
0.0
 10
165.1728365197337
 20
447.8546188527657
 30
0.0
 10
165.4054997131928
 20
447.473763492792
 30
0.0
 10
165.3933661372248
 20
447.4936250013519
 30
0.0
 10
165.3896969506548
 20
447.4996311104051
 30
0.0
  0
LINE
  5
A3
330
1F
100
AcDbEntity
  8
0
  6
Continuous
 62
     7
370
    25
100
AcDbLine
 10
-14.5875411963
 20
731.4623764357
 30
0.0
 11
165.4124588037
 21
731.4623764357
 31
0.0
  0
LINE
  5
A4
330
1F
100
AcDbEntity
  8
0
  6
Continuous
 62
     7
370
    25
100
AcDbLine
 10
-14.5875411963
 20
273.4623764357
 30
0.0
 11
165.4124588037
 21
273.4623764357
 31
0.0
  0
LINE
  5
A5
330
1F
100
AcDbEntity
  8
0
  6
Continuous
 62
     7
370
    25
100
AcDbLine
 10
285.4124588037
 20
557.4623764357
 30
0.0
 11
285.4124588037
 21
447.4623764357
 31
0.0
  0
LINE
  5
A6
330
1F
100
AcDbEntity
  8
0
  6
Continuous
 62
     7
370
    25
100
AcDbLine
 10
365.7901060362
 20
14.1022428818
 30
0.0
 11
823.7901060362
 21
14.1022428818
 31
0.0
  0
LINE
  5
A7
330
1F
100
AcDbEntity
  8
0
  6
Continuous
 62
     7
370
    25
100
AcDbLine
 10
823.7901060362
 20
194.1022428818
 30
0.0
 11
365.7901060362
 21
194.1022428818
 31
0.0
  0
LINE
  5
A8
330
1F
100
AcDbEntity
  8
0
  6
Continuous
 62
     7
370
    25
100
AcDbLine
 10
823.7901060362
 20
194.1022428818
 30
0.0
 11
823.7901060362
 21
14.1022428818
 31
0.0
  0
LINE
  5
A9
330
1F
100
AcDbEntity
  8
0
  6
Continuous
 62
     7
370
    25
100
AcDbLine
 10
365.7901060362
 20
194.1022428818
 30
0.0
 11
365.7901060362
 21
14.1022428818
 31
0.0
  0
LINE
  5
AA
330
1F
100
AcDbEntity
  8
0
  6
Continuous
 62
     7
370
    25
100
AcDbLine
 10
-93.9341342274
 20
194.1022428818
 30
0.0
 11
-551.9341342274
 21
194.1022428818
 31
0.0
  0
LINE
  5
AB
330
1F
100
AcDbEntity
  8
0
  6
Continuous
 62
     7
370
    25
100
AcDbLine
 10
-551.9341342274
 20
14.1022428818
 30
0.0
 11
-93.9341342274
 21
14.1022428818
 31
0.0
  0
CIRCLE
  5
AC
330
1F
100
AcDbEntity
  8
0
  6
Continuous
 62
     7
370
    25
100
AcDbCircle
 10
-322.9341342274
 20
104.1022428818
 30
0.0
 40
45.0
  0
CIRCLE
  5
AD
330
1F
100
AcDbEntity
  8
0
  6
Continuous
 62
     7
370
    25
100
AcDbCircle
 10
-322.9341342274
 20
104.1022428818
 30
0.0
 40
55.0
  0
LINE
  5
AE
330
1F
100
AcDbEntity
  8
0
  6
Continuous
 62
     7
370
    25
100
AcDbLine
 10
-551.9341342274
 20
104.1022428818
 30
0.0
 11
-551.9341342274
 21
194.1022428818
 31
0.0
  0
LINE
  5
AF
330
1F
100
AcDbEntity
  8
0
  6
Continuous
 62
     7
370
    25
100
AcDbLine
 10
-551.9341342274
 20
14.1022428818
 30
0.0
 11
-551.9341342274
 21
104.1022428818
 31
0.0
  0
LINE
  5
B0
330
1F
100
AcDbEntity
  8
0
  6
Continuous
 62
     7
370
    25
100
AcDbLine
 10
-93.9341342274
 20
104.1022428818
 30
0.0
 11
-93.9341342274
 21
194.1022428818
 31
0.0
  0
LINE
  5
B1
330
1F
100
AcDbEntity
  8
0
  6
Continuous
 62
     7
370
    25
100
AcDbLine
 10
-93.9341342274
 20
14.1022428818
 30
0.0
 11
-93.9341342274
 21
104.1022428818
 31
0.0
  0
INSERT
  5
BD
330
1F
100
AcDbEntity
  8
FORMAT
100
AcDbBlockReference
  2
SW_CENTERMARKSYMBOL_1
 10
-322.9341342274
 20
104.1022428818
 30
0.0
  0
LINE
  5
BE
330
1F
100
AcDbEntity
  8
0
  6
Continuous
 62
     7
370
    25
100
AcDbLine
 10
819.1245781555
 20
-342.7308424544
 30
0.0
 11
757.2125670206
 21
-306.9897991957
 31
0.0
  0
LINE
  5
BF
330
1F
100
AcDbEntity
  8
0
  6
Continuous
 62
     7
370
    25
100
AcDbLine
 10
647.2036268841
 20
-243.4829898353
 30
0.0
 11
495.269672372
 21
-155.773384847
 31
0.0
  0
LINE
  5
C0
330
1F
100
AcDbEntity
  8
0
  6
Continuous
 62
     7
370
    25
100
AcDbLine
 10
405.2769864348
 20
-311.6621800755
 30
0.0
 11
729.1318922182
 21
-498.6196376829
 31
0.0
  0
LINE
  5
C1
330
1F
100
AcDbEntity
  8
0
  6
Continuous
 62
     7
370
    25
100
AcDbLine
 10
697.0849626331
 20
-341.7007263658
 30
0.0
 11
788.1909714918
 21
-289.1063469545
 31
0.0
  0
LINE
  5
C2
330
1F
100
AcDbEntity
  8
0
  6
Continuous
 62
     7
370
    25
100
AcDbLine
 10
733.1954411968
 20
-193.8409720926
 30
0.0
 11
642.090319775
 21
-246.4348391975
 31
0.0
  0
SPLINE
  5
C3
330
1F
100
AcDbEntity
  8
0
  6
Continuous
 62
     7
370
    25
100
AcDbSpline
210
0.0
220
0.0
230
1.0
 70
     8
 71
     3
 72
    27
 73
    23
 74
     0
 42
0.000000001
 43
0.00000001
 40
0.0
 40
0.0
 40
0.0
 40
0.0
 40
0.0310012784936536
 40
0.0622441353390577
 40
0.0942337185186549
 40
0.1264718833172696
 40
0.1886161897554131
 40
0.2523288881844179
 40
0.3194371333776934
 40
0.3880806143859916
 40
0.4256564218478534
 40
0.4634998481438583
 40
0.5022569184296176
 40
0.5413746053729934
 40
0.597974521083065
 40
0.6561471994698588
 40
0.7127862605912598
 40
0.7711453971168923
 40
0.8271040137244001
 40
0.8842428990176153
 40
0.9503077898596684
 40
1.0
 40
1.0
 40
1.0
 40
1.0
 10
636.9495196366737
 20
-268.0069231577934
 30
0.0
 10
636.9577435116834
 20
-269.1516542614767
 30
0.0
 10
636.9742553464846
 20
-271.4500368187985
 30
0.0
 10
637.1093998171215
 20
-275.1647837573132
 30
0.0
 10
637.3299434027712
 20
-279.0664138877382
 30
0.0
 10
637.7459289164987
 20
-284.3950131972138
 30
0.0
 10
638.4938571574926
 20
-291.2788680946084
 30
0.0
 10
639.7968532482278
 20
-299.7769100339274
 30
0.0
 10
641.604509967772
 20
-308.4432977310273
 30
0.0
 10
643.6572444909817
 20
-315.6891636130692
 30
0.0
 10
645.7380321633666
 20
-321.4033256910283
 30
0.0
 10
647.6236502988496
 20
-325.7245386480773
 30
0.0
 10
649.8043338617496
 20
-329.844764403273
 30
0.0
 10
652.6864446886239
 20
-334.2638950508587
 30
0.0
 10
656.5131441998601
 20
-338.7086076914501
 30
0.0
 10
661.4892910841329
 20
-342.6330467019484
 30
0.0
 10
667.138714038674
 20
-345.3935918908545
 30
0.0
 10
673.1366429321881
 20
-346.8660646798949
 30
0.0
 10
679.3382079002672
 20
-347.1528205831019
 30
0.0
 10
685.7717887359285
 20
-346.2913193186354
 30
0.0
 10
691.8330532422714
 20
-344.5170625736383
 30
0.0
 10
695.4643112968043
 20
-342.4678800508802
 30
0.0
 10
697.0231378118799
 20
-341.5882069451043
 30
0.0
  0
SPLINE
  5
C4
330
1F
100
AcDbEntity
  8
0
  6
Continuous
 62
     7
370
    25
100
AcDbSpline
210
0.0
220
0.0
230
1.0
 70
     8
 71
     3
 72
    16
 73
    12
 74
     0
 42
0.000000001
 43
0.00000001
 40
0.0
 40
0.0
 40
0.0
 40
0.0
 40
0.0776061318689108
 40
0.1903191115660774
 40
0.3055427813869108
 40
0.4217071862571077
 40
0.5309560600669463
 40
0.6411554159228764
 40
0.7546056454811222
 40
0.8692886444721487
 40
1.0
 40
1.0
 40
1.0
 40
1.0
 10
642.1120275434173
 20
-246.4716278412746
 30
0.0
 10
641.8300976420855
 20
-246.6362738131571
 30
0.0
 10
641.1387006216025
 20
-247.040046998819
 30
0.0
 10
640.2259675758191
 20
-248.1191226472691
 30
0.0
 10
639.3315226274439
 20
-249.6816837090515
 30
0.0
 10
638.6011560741158
 20
-251.6539857048761
 30
0.0
 10
638.0149720308906
 20
-253.9950689827634
 30
0.0
 10
637.558926127043
 20
-256.703879602367
 30
0.0
 10
637.2248233891204
 20
-259.8560792477641
 30
0.0
 10
636.9955409849532
 20
-263.5798110122144
 30
0.0
 10
636.9655138443024
 20
-266.468329581135
 30
0.0
 10
636.9495196366737
 20
-268.0069231577934
 30
0.0
  0
LWPOLYLINE
  5
C5
330
1F
100
AcDbEntity
  8
0
  6
Continuous
 62
     7
370
    25
100
AcDbPolyline
 90
      101
 70
   128
 43
0.0
 10
513.9129397102
 20
-196.9794174292
 10
513.7873614764
 20
-192.437520239
 10
513.4111223747
 20
-188.0585373845
 10
512.7857072491
 20
-183.8597507107
 10
511.9135843274
 20
-179.8577309102
 10
510.7981954802
 20
-176.0682721269
 10
509.4439426378
 20
-172.5063296233
 10
507.8561704174
 20
-169.1859607592
 10
506.0411450307
 20
-166.1202695136
 10
504.0060295535
 20
-163.3213547692
 10
501.758855657
 20
-160.8002625639
 10
499.3084919099
 20
-158.5669424967
 10
496.6646087784
 20
-156.6302084617
 10
493.8376404614
 20
-154.9977038634
 10
490.8387437112
 20
-153.6758714514
 10
487.6797538034
 20
-152.6699278946
 10
484.3731378278
 20
-151.9838431925
 10
480.9319454871
 20
-151.620325008
 10
477.3697575953
 20
-151.5808079813
 10
473.7006324806
 20
-151.8654480681
 10
469.9390505036
 20
-152.473121924
 10
466.0998569098
 20
-153.4014313378
 10
462.1982032424
 20
-154.6467126965
 10
458.2494875459
 20
-156.2040514434
 10
454.2692935972
 20
-158.0673014739
 10
450.2733294034
 20
-160.2291093915
 10
446.2773652096
 20
-162.680943528
 10
442.2971712609
 20
-165.413127614
 10
438.3484555644
 20
-168.4148789673
 10
434.446801897
 20
-171.6743510467
 10
430.6076083032
 20
-175.1786802048
 10
426.8460263262
 20
-178.9140364557
 10
423.1769012115
 20
-182.8656780545
 10
419.6147133197
 20
-187.0180096774
 10
416.173520979
 20
-191.3546439683
 10
412.8669050035
 20
-195.8584662129
 10
409.7079150956
 20
-200.5117018826
 10
406.7090183455
 20
-205.2959867818
 10
403.8820500285
 20
-210.1924395239
 10
401.238166897
 20
-215.1817360469
 10
398.7878031498
 20
-220.2441858768
 10
396.5406292533
 20
-225.3598098369
 10
394.5055137762
 20
-230.5084188965
 10
392.6904883894
 20
-235.6696938479
 10
391.1027161691
 20
-240.8232654968
 10
389.7484633267
 20
-245.9487950504
 10
388.6330744795
 20
-251.0260543851
 10
387.7609515577
 20
-256.0350058778
 10
387.1355364321
 20
-260.9558814856
 10
386.7592973305
 20
-265.7692607604
 10
386.6337190966
 20
-270.4561474933
 10
386.7592973305
 20
-274.9980446835
 10
387.1355364321
 20
-279.3770275379
 10
387.7609515577
 20
-283.5758142118
 10
388.6330744795
 20
-287.5778340123
 10
389.7484633267
 20
-291.3672927956
 10
391.1027161691
 20
-294.9292352992
 10
392.6904883894
 20
-298.2496041633
 10
394.5055137762
 20
-301.3152954089
 10
396.5406292533
 20
-304.1142101533
 10
398.7878031498
 20
-306.6353023586
 10
401.238166897
 20
-308.8686224258
 10
403.8820500285
 20
-310.8053564608
 10
406.7090183455
 20
-312.4378610591
 10
409.7079150956
 20
-313.759693471
 10
412.8669050035
 20
-314.7656370279
 10
416.173520979
 20
-315.45172173
 10
419.6147133197
 20
-315.8152399145
 10
423.1769012115
 20
-315.8547569411
 10
426.8460263262
 20
-315.5701168544
 10
430.6076083032
 20
-314.9624429985
 10
434.446801897
 20
-314.0341335847
 10
438.3484555644
 20
-312.788852226
 10
442.2971712609
 20
-311.2315134791
 10
446.2773652096
 20
-309.3682634486
 10
450.2733294034
 20
-307.206455531
 10
454.2692935972
 20
-304.7546213945
 10
458.2494875459
 20
-302.0224373085
 10
462.1982032424
 20
-299.0206859552
 10
466.0998569098
 20
-295.7612138758
 10
469.9390505036
 20
-292.2568847176
 10
473.7006324806
 20
-288.5215284668
 10
477.3697575953
 20
-284.569886868
 10
480.9319454871
 20
-280.4175552451
 10
484.3731378278
 20
-276.0809209542
 10
487.6797538034
 20
-271.5770987095
 10
490.8387437112
 20
-266.9238630399
 10
493.8376404614
 20
-262.1395781407
 10
496.6646087784
 20
-257.2431253986
 10
499.3084919099
 20
-252.2538288756
 10
501.758855657
 20
-247.1913790457
 10
504.0060295535
 20
-242.0757550856
 10
506.0411450307
 20
-236.927146026
 10
507.8561704174
 20
-231.7658710746
 10
509.4439426378
 20
-226.6122994257
 10
510.7981954802
 20
-221.4867698721
 10
511.9135843274
 20
-216.4095105374
 10
512.7857072491
 20
-211.4005590446
 10
513.4111223747
 20
-206.4796834369
 10
513.7873614764
 20
-201.6663041621
 10
513.9129397102
 20
-196.9794174292
  0
LWPOLYLINE
  5
C6
330
1F
100
AcDbEntity
  8
0
  6
Continuous
 62
     7
370
    25
100
AcDbPolyline
 90
       14
 70
   128
 43
0.0
 10
837.7678454937
 20
-383.9368750366
 10
837.6422672598
 20
-379.3949778464
 10
837.2660281582
 20
-375.0159949919
 10
836.6406130326
 20
-370.8172083181
 10
835.7684901108
 20
-366.8151885176
 10
834.6531012636
 20
-363.0257297343
 10
833.2988484212
 20
-359.4637872307
 10
831.7110762008
 20
-356.1434183666
 10
829.8960508141
 20
-353.077727121
 10
827.860935337
 20
-350.2788123766
 10
825.6137614405
 20
-347.7577201713
 10
823.1633976933
 20
-345.5244001041
 10
820.5195145618
 20
-343.5876660691
 10
819.1245781555
 20
-342.7308424544
  0
LWPOLYLINE
  5
C7
330
1F
100
AcDbEntity
  8
0
  6
Continuous
 62
     7
370
    25
100
AcDbPolyline
 90
       39
 70
   128
 43
0.0
 10
729.1318922182
 20
-498.6196376829
 10
730.5639241289
 20
-499.3953186665
 10
733.5628208791
 20
-500.7171510784
 10
736.7218107869
 20
-501.7230946353
 10
740.0284267625
 20
-502.4091793374
 10
743.4696191032
 20
-502.7726975219
 10
747.031806995
 20
-502.8122145485
 10
750.7009321097
 20
-502.5275744618
 10
754.4625140867
 20
-501.9199006059
 10
758.3017076805
 20
-500.9915911921
 10
762.2033613479
 20
-499.7463098334
 10
766.1520770443
 20
-498.1889710865
 10
770.1322709931
 20
-496.325721056
 10
774.1282351869
 20
-494.1639131384
 10
778.1241993807
 20
-491.7120790019
 10
782.1043933294
 20
-488.9798949159
 10
786.0531090259
 20
-485.9781435626
 10
789.9547626933
 20
-482.7186714832
 10
793.7939562871
 20
-479.214342325
 10
797.5555382641
 20
-475.4789860742
 10
801.2246633788
 20
-471.5273444754
 10
804.7868512706
 20
-467.3750128525
 10
808.2280436113
 20
-463.0383785616
 10
811.5346595868
 20
-458.5345563169
 10
814.6936494947
 20
-453.8813206473
 10
817.6925462448
 20
-449.0970357481
 10
820.5195145618
 20
-444.200583006
 10
823.1633976933
 20
-439.211286483
 10
825.6137614405
 20
-434.1488366531
 10
827.860935337
 20
-429.033212693
 10
829.8960508141
 20
-423.8846036334
 10
831.7110762008
 20
-418.723328682
 10
833.2988484212
 20
-413.5697570331
 10
834.6531012636
 20
-408.4442274795
 10
835.7684901108
 20
-403.3669681448
 10
836.6406130326
 20
-398.358016652
 10
837.2660281582
 20
-393.4371410443
 10
837.6422672598
 20
-388.6237617695
 10
837.7678454937
 20
-383.9368750366
  0
LWPOLYLINE
  5
C8
330
1F
100
AcDbEntity
  8
0
  6
Continuous
 62
     7
370
    25
100
AcDbPolyline
 90
       92
 70
   128
 43
0.0
 10
502.3163884988
 20
-203.6739639462
 10
502.1923840603
 20
-199.5993615239
 10
501.8209616826
 20
-195.6873489149
 10
501.2038913625
 20
-191.9565686407
 10
500.3441137209
 20
-188.4247995683
 10
499.24572599
 20
-185.1088721858
 10
497.9139624874
 20
-182.024588397
 10
496.3551696728
 20
-179.1866462189
 10
494.5767759037
 20
-176.6085697384
 10
492.5872560364
 20
-174.3026446638
 10
490.396091039
 20
-172.2798597784
 10
488.0137228106
 20
-170.5498545733
 10
485.4515044208
 20
-169.120873311
 10
482.7216460069
 20
-167.9997257381
 10
479.8371565875
 20
-167.1917546333
 10
476.8117820683
 20
-166.700810347
 10
473.6599397367
 20
-166.5292324521
 10
470.3966495565
 20
-166.6778385955
 10
467.0374625918
 20
-167.1459206012
 10
463.598386898
 20
-167.9312478454
 10
460.0958112371
 20
-169.030077886
 10
456.5464269771
 20
-170.4371742976
 10
452.9671485504
 20
-172.1458316249
 10
449.3750328488
 20
-174.1479073376
 10
445.7871979393
 20
-176.4338606333
 10
442.2207414892
 20
-178.9927979034
 10
438.6926592876
 20
-181.8125246466
 10
435.2197642529
 20
-184.8796035808
 10
431.8186063116
 20
-188.1794186782
 10
428.50539353
 20
-191.696244817
 10
425.2959148759
 20
-195.4133227192
 10
422.2054649767
 20
-199.3129388158
 10
419.2487712335
 20
-203.3765096603
 10
416.4399236385
 20
-207.584670487
 10
413.7923076296
 20
-211.9173674932
 10
411.3185403029
 20
-216.3539534046
 10
409.0304102861
 20
-220.8732858689
 10
406.9388215608
 20
-225.4538282088
 10
405.0537414998
 20
-230.0737520542
 10
403.3841533681
 20
-234.7110413638
 10
401.9380135134
 20
-239.3435973425
 10
400.7222134507
 20
-243.9493437513
 10
399.742547021
 20
-248.5063321112
 10
399.0036827809
 20
-252.9928462972
 10
398.509141755
 20
-257.3875060263
 10
398.2612806566
 20
-261.6693687435
 10
398.2612806566
 20
-265.8180294229
 10
398.509141755
 20
-269.8137178072
 10
399.0036827809
 20
-273.6373926216
 10
399.742547021
 20
-277.2708323142
 10
400.7222134507
 20
-280.6967218904
 10
401.9380135134
 20
-283.8987354261
 10
403.3841533681
 20
-286.8616138686
 10
405.0537414998
 20
-289.5712377529
 10
406.9388215608
 20
-292.0146944873
 10
409.0304102861
 20
-294.1803398875
 10
411.3185403029
 20
-296.0578536671
 10
413.7923076296
 20
-297.6382886179
 10
416.4399236385
 20
-298.9141132477
 10
419.2487712335
 20
-299.879247671
 10
422.2054649767
 20
-300.5290925828
 10
425.2959148759
 20
-300.8605511761
 10
428.50539353
 20
-300.8720438999
 10
431.8186063116
 20
-300.5635159861
 10
435.2197642529
 20
-299.9364377106
 10
438.6926592876
 20
-298.993797387
 10
442.2207414892
 20
-297.7400871258
 10
445.7871979393
 20
-296.1812814273
 10
449.3750328488
 20
-294.3248087105
 10
452.9671485504
 20
-292.1795159133
 10
456.5464269771
 20
-289.7556263329
 10
460.0958112371
 20
-287.0646909069
 10
463.598386898
 20
-284.1195331682
 10
467.0374625918
 20
-280.9341881345
 10
470.3966495565
 20
-277.5238354255
 10
473.6599397367
 20
-273.904726925
 10
476.8117820683
 20
-270.0941093331
 10
479.8371565875
 20
-266.1101419779
 10
482.7216460069
 20
-261.9718102783
 10
485.4515044208
 20
-257.6988352693
 10
488.0137228106
 20
-253.3115796227
 10
490.396091039
 20
-248.8309506097
 10
492.5872560364
 20
-244.278300468
 10
494.5767759037
 20
-239.6753246488
 10
496.3551696728
 20
-235.043958428
 10
497.9139624874
 20
-230.4062723747
 10
499.24572599
 20
-225.7843671751
 10
500.3441137209
 20
-221.2002683122
 10
501.2038913625
 20
-216.6758211046
 10
501.8209616826
 20
-212.2325866038
 10
502.1923840603
 20
-207.8917388455
 10
502.3163884988
 20
-203.6739639462
  0
LWPOLYLINE
  5
C9
330
1F
100
AcDbEntity
  8
0
  6
Continuous
 62
     7
370
    25
100
AcDbPolyline
 90
       72
 70
   128
 43
0.0
 10
792.5130114977
 20
-259.8428420396
 10
792.3884949386
 20
-256.5234918537
 10
792.0159197722
 20
-253.0863563246
 10
791.3982019043
 20
-249.5583356979
 10
790.5401758148
 20
-245.9670415186
 10
789.4485567211
 20
-242.3405805328
 10
788.1318880228
 20
-238.7073347146
 10
786.6004744377
 20
-235.0957391388
 10
784.8663013533
 20
-231.5340594376
 10
782.9429410254
 20
-228.0501705836
 10
780.8454463563
 20
-224.6713387308
 10
778.5902330857
 20
-221.4240078197
 10
776.1949513152
 20
-218.3335926174
 10
773.6783473722
 20
-215.4242798132
 10
771.0601170948
 20
-212.7188387242
 10
768.3607516848
 20
-210.2384430952
 10
765.6013773364
 20
-208.0025053851
 10
762.8035898953
 20
-206.0285248379
 10
759.9892858415
 20
-204.331950528
 10
757.1804909201
 20
-202.9260604495
 10
754.3991877596
 20
-201.8218575986
 10
751.6671438283
 20
-201.0279838596
 10
749.0057410741
 20
-200.5506523709
 10
746.4358085821
 20
-200.3935988987
 10
743.9774595585
 20
-200.5580525993
 10
741.6499339176
 20
-201.0427263995
 10
739.4714477032
 20
-201.8438270697
 10
737.4590505237
 20
-202.955084911
 10
735.6284921156
 20
-204.367802824
 10
733.9940990803
 20
-206.0709243756
 10
732.5686627593
 20
-208.0511203306
 10
731.3633391245
 20
-210.2928929707
 10
730.3875614676
 20
-212.7786973856
 10
729.6489665718
 20
-215.4890787852
 10
729.1533349435
 20
-218.4028247604
 10
728.9045455723
 20
-221.4971312981
 10
728.9045455723
 20
-224.7477812544
 10
729.1533349435
 20
-228.1293338859
 10
729.6489665718
 20
-231.6153239584
 10
730.3875614676
 20
-235.1784688732
 10
731.3633391245
 20
-238.7908821901
 10
732.5686627593
 20
-242.4242918772
 10
733.9940990803
 20
-246.0502615771
 10
735.6284921156
 20
-249.6404131608
 10
737.4590505237
 20
-253.1666488243
 10
739.4714477032
 20
-256.6013709927
 10
741.6499339176
 20
-259.9176983079
 10
743.9774595585
 20
-263.0896760123
 10
746.4358085821
 20
-266.0924790795
 10
749.0057410741
 20
-268.9026065043
 10
751.6671438283
 20
-271.4980652294
 10
754.3991877596
 20
-273.8585422713
 10
757.1804909201
 20
-275.9655636967
 10
759.9892858415
 20
-277.802639206
 10
762.8035898953
 20
-279.3553911927
 10
765.6013773364
 20
-280.6116672671
 10
768.3607516848
 20
-281.5616353657
 10
771.0601170948
 20
-282.1978607
 10
773.6783473722
 20
-282.5153639441
 10
776.1949513152
 20
-282.5116602048
 10
778.5902330857
 20
-282.1867784688
 10
780.8454463563
 20
-281.5432613761
 10
782.9429410254
 20
-280.5861453206
 10
784.8663013533
 20
-279.3229210331
 10
786.6004744377
 20
-277.7634749563
 10
788.1318880228
 20
-275.9200118702
 10
789.4485567211
 20
-273.8069593729
 10
790.5401758148
 20
-271.4408549651
 10
791.3982019043
 20
-268.840216622
 10
792.0159197722
 20
-266.0253978647
 10
792.3884949386
 20
-263.0184284664
 10
792.5130114977
 20
-259.8428420396
  0
LWPOLYLINE
  5
CA
330
1F
100
AcDbEntity
  8
0
  6
Continuous
 62
     7
370
    25
100
AcDbPolyline
 90
       79
 70
   128
 43
0.0
 10
799.5840793096
 20
-263.9248825987
 10
799.4579681922
 20
-260.238347146
 10
799.0804527189
 20
-256.4301154935
 10
798.4539812225
 20
-252.5248854848
 10
797.582616611
 20
-248.547984035
 10
796.4720100183
 20
-244.5252028761
 10
795.1293641543
 20
-240.4826312876
 10
793.5633865927
 20
-236.4464868974
 10
791.7842332988
 20
-232.4429456509
 10
789.8034427646
 20
-228.4979720492
 10
787.6338611766
 20
-224.6371507599
 10
785.2895591041
 20
-220.8855206907
 10
782.7857402455
 20
-217.2674126021
 10
780.1386428269
 20
-213.8062913135
 10
777.365434291
 20
-210.5246035246
 10
774.4840999592
 20
-207.44363224
 10
771.5133263902
 20
-204.5833587407
 10
768.4723801908
 20
-201.962332998
 10
765.3809830638
 20
-199.5975533695
 10
762.2591839059
 20
-197.5043563586
 10
759.1272287827
 20
-195.6963171511
 10
756.0054296249
 20
-194.1851615752
 10
752.9140324979
 20
-192.9806900545
 10
749.8730862984
 20
-192.0907140491
 10
746.9023127295
 20
-191.521005395
 10
744.0209783976
 20
-191.2752588712
 10
741.2477698617
 20
-191.3550682384
 10
738.6006724432
 20
-191.7599159022
 10
736.0968535846
 20
-192.4871762701
 10
733.752551512
 20
-193.5321327795
 10
731.5829699241
 20
-194.8880084866
 10
729.6021793898
 20
-196.546010017
 10
727.8230260959
 20
-198.4953845946
 10
726.2570485343
 20
-200.7234897773
 10
724.9144026703
 20
-203.2158754478
 10
723.8037960776
 20
-205.9563775289
 10
722.9324314661
 20
-208.9272228128
 10
722.3059599697
 20
-212.1091442278
 10
721.9284444965
 20
-215.4815057926
 10
721.8023333791
 20
-219.0224364484
 10
721.9284444965
 20
-222.7089719011
 10
722.3059599697
 20
-226.5172035536
 10
722.9324314661
 20
-230.4224335623
 10
723.8037960776
 20
-234.3993350121
 10
724.9144026703
 20
-238.422116171
 10
726.2570485343
 20
-242.4646877596
 10
727.8230260959
 20
-246.5008321497
 10
729.6021793898
 20
-250.5043733962
 10
731.5829699241
 20
-254.4493469979
 10
733.752551512
 20
-258.3101682872
 10
736.0968535846
 20
-262.0617983564
 10
738.6006724432
 20
-265.679906445
 10
741.2477698617
 20
-269.1410277336
 10
744.0209783976
 20
-272.4227155225
 10
746.9023127295
 20
-275.5036868071
 10
749.8730862984
 20
-278.3639603064
 10
752.9140324979
 20
-280.9849860491
 10
756.0054296249
 20
-283.3497656776
 10
759.1272287827
 20
-285.4429626885
 10
762.2591839059
 20
-287.251001896
 10
765.3809830638
 20
-288.7621574719
 10
768.4723801908
 20
-289.9666289926
 10
771.5133263902
 20
-290.856604998
 10
774.4840999592
 20
-291.4263136522
 10
777.365434291
 20
-291.6720601759
 10
780.1386428269
 20
-291.5922508087
 10
782.7857402455
 20
-291.1874031449
 10
785.2895591041
 20
-290.4601427771
 10
787.6338611766
 20
-289.4151862676
 10
789.8034427646
 20
-288.0593105606
 10
791.7842332988
 20
-286.4013090301
 10
793.5633865927
 20
-284.4519344525
 10
795.1293641543
 20
-282.2238292699
 10
796.4720100183
 20
-279.7314435993
 10
797.582616611
 20
-276.9909415182
 10
798.4539812225
 20
-274.0200962343
 10
799.0804527189
 20
-270.8381748193
 10
799.4579681922
 20
-267.4658132545
 10
799.5840793096
 20
-263.9248825987
  0
ENDSEC
  0
SECTION
  2
OBJECTS
  0
DICTIONARY
  5
C
330
0
100
AcDbDictionary
281
     1
  3
ACAD_GROUP
350
D
  3
ACAD_LAYOUT
350
1A
  3
ACAD_MLINESTYLE
350
17
  3
ACAD_PLOTSETTINGS
350
19
  3
ACAD_PLOTSTYLENAME
350
E
  3
ACAD_SCALELIST
350
47
  0
DICTIONARY
  5
D
102
{ACAD_REACTORS
330
C
102
}
330
C
100
AcDbDictionary
281
     1
  0
DICTIONARY
  5
1A
102
{ACAD_REACTORS
330
C
102
}
330
C
100
AcDbDictionary
281
     1
  3
Layout1
350
1E
  3
Layout2
350
26
  3
Model
350
22
  0
DICTIONARY
  5
17
102
{ACAD_REACTORS
330
C
102
}
330
C
100
AcDbDictionary
281
     1
  3
Standard
350
18
  0
DICTIONARY
  5
19
102
{ACAD_REACTORS
330
C
102
}
330
C
100
AcDbDictionary
281
     1
  0
ACDBDICTIONARYWDFLT
  5
E
102
{ACAD_REACTORS
330
C
102
}
330
C
100
AcDbDictionary
281
     1
  3
Normal
350
F
100
AcDbDictionaryWithDefault
340
F
  0
DICTIONARY
  5
47
102
{ACAD_REACTORS
330
C
102
}
330
C
100
AcDbDictionary
281
     1
  3
A0
350
48
  3
A1
350
49
  3
A2
350
4A
  3
A3
350
4B
  3
A4
350
4C
  3
A5
350
4D
  3
A6
350
4E
  3
A7
350
4F
  3
A8
350
50
  3
A9
350
51
  3
B0
350
52
  3
B1
350
53
  3
B2
350
54
  3
B3
350
55
  3
B4
350
56
  3
B5
350
57
  3
B6
350
58
  3
B7
350
59
  3
B8
350
5A
  3
B9
350
5B
  3
C0
350
5C
  3
C1
350
5D
  3
C2
350
5E
  3
C3
350
5F
  3
C4
350
60
  3
C5
350
61
  3
C6
350
62
  3
C7
350
63
  3
C8
350
64
  3
C9
350
65
  3
D0
350
66
  3
D1
350
67
  3
D2
350
68
  0
LAYOUT
  5
1E
102
{ACAD_REACTORS
330
1A
102
}
330
1A
100
AcDbPlotSettings
  1

  2
none_device
  4

  6

 40
0.0
 41
0.0
 42
0.0
 43
0.0
 44
0.0
 45
0.0
 46
0.0
 47
0.0
 48
0.0
 49
0.0
140
0.0
141
0.0
142
1.0
143
1.0
 70
   688
 72
     1
 73
     0
 74
     5
  7

 75
    16
147
1.0
148
0.0
149
0.0
100
AcDbLayout
  1
Layout1
 70
     1
 71
     1
 10
0.0
 20
0.0
 11
420.0
 21
297.0
 12
0.0
 22
0.0
 32
0.0
 14
1.0000000000E+20
 24
1.0000000000E+20
 34
1.0000000000E+20
 15
-1.0000000000E+20
 25
-1.0000000000E+20
 35
-1.0000000000E+20
146
0.0
 13
0.0
 23
0.0
 33
0.0
 16
1.0
 26
0.0
 36
0.0
 17
0.0
 27
1.0
 37
0.0
 76
     0
330
1B
  0
LAYOUT
  5
26
102
{ACAD_REACTORS
330
1A
102
}
330
1A
100
AcDbPlotSettings
  1

  2
none_device
  4

  6

 40
0.0
 41
0.0
 42
0.0
 43
0.0
 44
0.0
 45
0.0
 46
0.0
 47
0.0
 48
0.0
 49
0.0
140
0.0
141
0.0
142
1.0
143
1.0
 70
   688
 72
     1
 73
     0
 74
     5
  7

 75
    16
147
1.0
148
0.0
149
0.0
100
AcDbLayout
  1
Layout2
 70
     1
 71
     2
 10
0.0
 20
0.0
 11
0.0
 21
0.0
 12
0.0
 22
0.0
 32
0.0
 14
0.0
 24
0.0
 34
0.0
 15
0.0
 25
0.0
 35
0.0
146
0.0
 13
0.0
 23
0.0
 33
0.0
 16
1.0
 26
0.0
 36
0.0
 17
0.0
 27
1.0
 37
0.0
 76
     0
330
23
  0
LAYOUT
  5
22
102
{ACAD_REACTORS
330
1A
102
}
330
1A
100
AcDbPlotSettings
  1

  2
none_device
  4
Letter_(8.50_x_11.00_Inches)
  6

 40
6.35
 41
6.35
 42
6.35000508
 43
6.35000508
 44
215.9
 45
279.4
 46
0.0
 47
0.0
 48
0.0
 49
0.0
140
0.0
141
0.0
142
1.0
143
1.0
 70
  1712
 72
     1
 73
     0
 74
     0
  7

 75
     0
147
1.0
148
0.0
149
0.0
100
AcDbLayout
  1
Model
 70
     1
 71
     0
 10
0.0
 20
0.0
 11
279.4
 21
215.9
 12
0.0
 22
0.0
 32
0.0
 14
0.0
 24
0.0
 34
0.0
 15
279.4
 25
215.9
 35
0.0
146
0.0
 13
0.0
 23
0.0
 33
0.0
 16
1.0
 26
0.0
 36
0.0
 17
0.0
 27
1.0
 37
0.0
 76
     0
330
1F
331
29
  0
MLINESTYLE
  5
18
102
{ACAD_REACTORS
330
17
102
}
330
17
100
AcDbMlineStyle
  2
Standard
 70
     0
  3

 62
   256
 51
90.0
 52
90.0
 71
     2
 49
0.5
 62
   256
  6
BYLAYER
 49
-0.5
 62
   256
  6
BYLAYER
  0
ACDBPLACEHOLDER
  5
F
102
{ACAD_REACTORS
330
E
102
}
330
E
  0
SCALE
  5
48
102
{ACAD_REACTORS
330
47
102
}
330
47
100
AcDbScale
 70
     0
300
1:1
140
1.0
141
1.0
290
     1
  0
SCALE
  5
49
102
{ACAD_REACTORS
330
47
102
}
330
47
100
AcDbScale
 70
     0
300
1:2
140
1.0
141
2.0
290
     0
  0
SCALE
  5
4A
102
{ACAD_REACTORS
330
47
102
}
330
47
100
AcDbScale
 70
     0
300
1:4
140
1.0
141
4.0
290
     0
  0
SCALE
  5
4B
102
{ACAD_REACTORS
330
47
102
}
330
47
100
AcDbScale
 70
     0
300
1:5
140
1.0
141
5.0
290
     0
  0
SCALE
  5
4C
102
{ACAD_REACTORS
330
47
102
}
330
47
100
AcDbScale
 70
     0
300
1:8
140
1.0
141
8.0
290
     0
  0
SCALE
  5
4D
102
{ACAD_REACTORS
330
47
102
}
330
47
100
AcDbScale
 70
     0
300
1:10
140
1.0
141
10.0
290
     0
  0
SCALE
  5
4E
102
{ACAD_REACTORS
330
47
102
}
330
47
100
AcDbScale
 70
     0
300
1:16
140
1.0
141
16.0
290
     0
  0
SCALE
  5
4F
102
{ACAD_REACTORS
330
47
102
}
330
47
100
AcDbScale
 70
     0
300
1:20
140
1.0
141
20.0
290
     0
  0
SCALE
  5
50
102
{ACAD_REACTORS
330
47
102
}
330
47
100
AcDbScale
 70
     0
300
1:30
140
1.0
141
30.0
290
     0
  0
SCALE
  5
51
102
{ACAD_REACTORS
330
47
102
}
330
47
100
AcDbScale
 70
     0
300
1:40
140
1.0
141
40.0
290
     0
  0
SCALE
  5
52
102
{ACAD_REACTORS
330
47
102
}
330
47
100
AcDbScale
 70
     0
300
1:50
140
1.0
141
50.0
290
     0
  0
SCALE
  5
53
102
{ACAD_REACTORS
330
47
102
}
330
47
100
AcDbScale
 70
     0
300
1:100
140
1.0
141
100.0
290
     0
  0
SCALE
  5
54
102
{ACAD_REACTORS
330
47
102
}
330
47
100
AcDbScale
 70
     0
300
2:1
140
2.0
141
1.0
290
     0
  0
SCALE
  5
55
102
{ACAD_REACTORS
330
47
102
}
330
47
100
AcDbScale
 70
     0
300
4:1
140
4.0
141
1.0
290
     0
  0
SCALE
  5
56
102
{ACAD_REACTORS
330
47
102
}
330
47
100
AcDbScale
 70
     0
300
8:1
140
8.0
141
1.0
290
     0
  0
SCALE
  5
57
102
{ACAD_REACTORS
330
47
102
}
330
47
100
AcDbScale
 70
     0
300
10:1
140
10.0
141
1.0
290
     0
  0
SCALE
  5
58
102
{ACAD_REACTORS
330
47
102
}
330
47
100
AcDbScale
 70
     0
300
100:1
140
100.0
141
1.0
290
     0
  0
SCALE
  5
59
102
{ACAD_REACTORS
330
47
102
}
330
47
100
AcDbScale
 70
     0
300
1/128" = 1'-0"
140
0.0078125
141
12.0
290
     0
  0
SCALE
  5
5A
102
{ACAD_REACTORS
330
47
102
}
330
47
100
AcDbScale
 70
     0
300
1/64" = 1'-0"
140
0.015625
141
12.0
290
     0
  0
SCALE
  5
5B
102
{ACAD_REACTORS
330
47
102
}
330
47
100
AcDbScale
 70
     0
300
1/32" = 1'-0"
140
0.03125
141
12.0
290
     0
  0
SCALE
  5
5C
102
{ACAD_REACTORS
330
47
102
}
330
47
100
AcDbScale
 70
     0
300
1/16" = 1'-0"
140
0.0625
141
12.0
290
     0
  0
SCALE
  5
5D
102
{ACAD_REACTORS
330
47
102
}
330
47
100
AcDbScale
 70
     0
300
3/32" = 1'-0"
140
0.09375
141
12.0
290
     0
  0
SCALE
  5
5E
102
{ACAD_REACTORS
330
47
102
}
330
47
100
AcDbScale
 70
     0
300
1/8" = 1'-0"
140
0.125
141
12.0
290
     0
  0
SCALE
  5
5F
102
{ACAD_REACTORS
330
47
102
}
330
47
100
AcDbScale
 70
     0
300
3/16" = 1'-0"
140
0.1875
141
12.0
290
     0
  0
SCALE
  5
60
102
{ACAD_REACTORS
330
47
102
}
330
47
100
AcDbScale
 70
     0
300
1/4" = 1'-0"
140
0.25
141
12.0
290
     0
  0
SCALE
  5
61
102
{ACAD_REACTORS
330
47
102
}
330
47
100
AcDbScale
 70
     0
300
3/8" = 1'-0"
140
0.375
141
12.0
290
     0
  0
SCALE
  5
62
102
{ACAD_REACTORS
330
47
102
}
330
47
100
AcDbScale
 70
     0
300
1/2" = 1'-0"
140
0.5
141
12.0
290
     0
  0
SCALE
  5
63
102
{ACAD_REACTORS
330
47
102
}
330
47
100
AcDbScale
 70
     0
300
3/4" = 1'-0"
140
0.75
141
12.0
290
     0
  0
SCALE
  5
64
102
{ACAD_REACTORS
330
47
102
}
330
47
100
AcDbScale
 70
     0
300
1" = 1'-0"
140
1.0
141
12.0
290
     0
  0
SCALE
  5
65
102
{ACAD_REACTORS
330
47
102
}
330
47
100
AcDbScale
 70
     0
300
1-1/2" = 1'-0"
140
1.5
141
12.0
290
     0
  0
SCALE
  5
66
102
{ACAD_REACTORS
330
47
102
}
330
47
100
AcDbScale
 70
     0
300
3" = 1'-0"
140
3.0
141
12.0
290
     0
  0
SCALE
  5
67
102
{ACAD_REACTORS
330
47
102
}
330
47
100
AcDbScale
 70
     0
300
6" = 1'-0"
140
6.0
141
12.0
290
     0
  0
SCALE
  5
68
102
{ACAD_REACTORS
330
47
102
}
330
47
100
AcDbScale
 70
     0
300
1'-0" = 1'-0"
140
12.0
141
12.0
290
     0
  0
ENDSEC
  0
EOF
